Super Mario Bros.
 


Learn how to play NES theme songs on your acoustic guitar


Do you own an acoustic guitar and have fast fingers? If you've answered Yes then you might be interested in NES Game Tabs. The shreaders there have released guitar tablature for NES game theme songs - including tabs are for Super Mario Bros, SMB 2, Tetris, Paperboy, Legend of Zelda and many more. Here's a video of the SMB theme song. Guitar tab located below the video.

#----------------------------------PLEASE NOTE---------------------------------#
#This file is the author's own work and represents their interpretation of the #
#song. You may only use this file for private study, scholarship, or research. #
#------------------------------------------------------------------------------##

Super Mario Bros - Overworld Theme

Composer: Koji Kondo
Tabbed by fr3rdsky

1 Guitar (Classical Arrangement)

Standard Tuning EADGBe

Intro

|-12-12-12----12--15-----|
|----------13------------|
|-11-11-11-11-11--12--12-|
|--0--0--0--0--0---------|
|-----------------10--10-|
|------------------------|

Part 1 (2x)

|-8--3--0---5--7--6-5--------3-5--1-3--1---------|
|-5--1--------------------5---------------2--3-0-|
|-------0---5--7--6-5---5------- -0-2------------|
|-5--2------3--5--4-3--------2-3-------0---------|
|-------3---------------3-----------------0--2---|
|----------------------------------------------3-|

Part 2 (2x)


|----3-2-1------0----------------------3-2-1-----0----8--8--8----|
|----------4------------1-----1h3------------4--------6--6--6----|
|------0-----5--------2-----2------------0-----5-----------------|
|-------------------3-----3------------------------------------5-|
|-3---------------------------------3----------------------------|
|-----------------1-----------1----------------------------------|


|----3-2-1------0----------------------------------------|
|----------4-------------1------1h3---4---3---1----------|
|------0-----5--------2-------2------------------0-0-----|
|-------------------3------3----------5---3---2----------|
|-3-------------------------------- ------1---3--------3-|
|-----------------1-------------1-----4------------------|

Part 3

|--------------------------------------------------------|
|---------------5-----------------------------5----------|
|-5-5--5---5-7-----5------------5-5--5---5-7-------------|
|-6-6--6-----6--5-----7--5------6-6--6-----6--5----------|
|------6-----------7--7--3-----------6----------7--3-----|
|-4-------------------------3---4----------------------3-|


|-----------------------------|-12-12-12----12--15-----|
|---------------5-------------|----------13------------|
|-5-5--5---5-7----5-----------|-11-11-11-11-11--12--12-|
|-6-6--6-----6--5----7--5-----|--0--0--0--0--0---------|
|------6----------7--7--3-----|-----------------10--10-|
|-4------------------------3--|------------------------|

Part 4 (2x)

|-0---------------1-1----------5-5-5-3-1--0--------|
|-1-1-------------1-1-------0--6-6-6-5-3--1-1------|
|---2-0-----1--2------2-----0------0--------2-2-0--|
|-----2-----2--3------3-----0-----------------3-2--|
|-3-------------------1-------------------3--------|
|--------3-----1---------1----------------------3--|

|-0---------------1-1-----------1-1-1-0--------------|
|-1-1-------------1-1--------0--3-3-3-1--3--1--------|
|---2-0-----1--2-------2-----0--------------0--0-----|
|-----2-----2--3-------3-------------------------2---|
|-3--------------------1--------------1--2--3------3-|
|--------3-----1----------1--3------3----------------|

Stage Clear

|-----------0-3------------------4------------------6--6-6-6--8-|
|---------1---5--5-----------1-4-4--4-----------3-6-6--6-6-6--5-|
|-------0--------5---------1--------5---------3--------7------5-|
|-----2------------------1------------------3-------------------|
|---3------------------3------------------5---------------------|
|-3------------------4------------------6-----------------------|

 

Brought to you by www.nesgametabs.com




Donkey Kong theme with tab:




#----------------------------------PLEASE NOTE---------------------------------#
#This file is the author's own work and represents their interpretation of the #
#song. You may only use this file for private study, scholarship, or research. #
#------------------------------------------------------------------------------##

 

Donkey Kong ( Main Theme )

Tabbed by Oroz5 
1 guitar (classical)

This is a more simplified version. I let the bass notes hang. Listen to the game for
timing. Enjoy!
e|-----5-----------0-3-1-------------|-----6--------------5----0-------------|
G|-1-1-------------------3-----------|-3-3--------------8---8----------------|
B|---------2---2--------------0---0--|-0----------------------------0---0----|
D|-------3---3--------------0---0---0|----------8----8------------2---2---2--|
A|-----------------------1-----------|-------10---10-----------3-------------|
E|-----1-----------------------------|-----6---------------------------------|

e|-0-0---8---------5-6-8--10----------|------5--------------0-1-3-1------------1-|
G|-1-1---5-----------------6----------|-6-8------------------------------------1-|
B|---------5---5-------------7---7---7|---7--5---5-3-2-3-5--------2---5-3-2-0--2-|
D|-----------7---7-------------8---8--|-8----3-3-------------------------------3-|
A|-3----------------------------------|----------------------------------------3-|
E|-------5-----------------6----------|---------------------------1-1----------1-|
 

Brought to you by www.nesgametabs.com

Comments

Post new comment

The content of this field is kept private and will not be shown publicly.
CAPTCHA
This question is for testing whether you are a human visitor and to prevent automated spam submissions.

Syndicate

Syndicate content

FC Twin console - play Nintendo Entertainment System and Super Nintendo cartridges!

BEST SUPER MARIO TOYS OF 2012

Play Free Super Mario games

Recent Super Mario Bros. Stuff

Popular content



Recent comments


WiiSearch



Advertise Your Company Here!
Advertise With Wii Love Mario
Advertise with WiiLoveMario.com
         
 

 

 

 

 

 

 

 

 

 

 

 

   
 


DMCA Policy